The Hawk

From MelvinsWiki
Jump to: navigation, search

"The Hawk" – 2:35

Originally released on (A) Senile Animal, 2006.

Lyrics

Hey there, Mr. Nightmare
Now you're lost
(Basics only)
The gutter and the martyr
Have left you alone
(Basics only)
The learned and the sparrow
Are all eaten by hawks
(Basics only)


Now you're in the Nightmare
It's not your fault
(Basics only)
The winds of Holy Nightmare
Come drifting in
(Basics only)
Where is all your cold wing
Where is what you knew
(Basics only)


Now the gutter mortal Now alive and well, yeah
Now the morning after is just you and yours.

Guitar Tab

Drop D tuning
Intro
e-------------------------------------------------------------------------------------
b-------------------------------------------------------------------------------------
g-------------------------------------------------------------------------------------
d-----^------------------^------------------^-----------------------------------------
a--0--3--0-0--0-0--0--0--3--0-0--0-0--0--0--3--0-0--0-0--0--0---9x10x9x10x9x10--------
d--0--3--0-0--0-0--0--0--3--0-0--0-0--0--0--3--0-0--0-0--0--0---9x9-x9x-9x9x-9--------
         . .  . .  .  .     . .  . .  .  .     . .  . .  .  .

e-------------------------------------------------------------------------------------
b-------------------------------------------------------------------------------------
g-------------------------------------------------------------------------------------
d-----^------------------^------------------------------------------------------------
a--0--3--0-0--0-0--0--0--3--0-0--0-0--0--0---9x10x9x10x9x10---------------------------    x3
d--0--3--0-0--0-0--0--0--3--0-0--0-0--0--0---9x9-x9x-9x9x-9---------------------------
         . .  . .  .  .     . .  . .  .  .     
e-------------------------------------------------------------------------------------
b-------------------------------------------------------------------------------------
g-------------------------------------------------------------------------------------
d--7~---------------------------------------------------------------------------------
a--5~--------------------------------------------------------------------------------- 
d--0~---------------------------------------------------------------------------------
Riff 1
e-------------------------------------------------------------------------------------
b-------------------------------------------------------------------------------------
g-------------------------------------------------------------------------------------
d----------------------------------------------^-----7--------------------------------
a--0--3--0-0-0--3-0-3-0--5--6-6--0-0--3h5-3-0--3--0--5-------------------------------- 
d--0--3--0-0-0--3-0-3-0--5--6-6--0-0--3h5-3-0--3--0-----------------------------------
   .     . . .                   . .       
e-------------------------------------------------------------------------------------
b-------------------------------------------------------------------------------------
g-------------------------------------------------------------------------------------
d-------------------------------------------------------------------------------------
a--0-0-3h5-3-0-3----3-3-3-3-3-3-3-----------------------------------------------------
d--0-0-3h5-3-0-3----3-3-3-3-3-3-3-----------------------------------------------------
   . .              . . . . . .
Riff 1
e-------------------------------------------------------------------------------------
b-------------------------------------------------------------------------------------
g-------------------------------------------------------------------------------------
d----------------------------------------------^-----7--------------------------------
a--0--3--0-0-0--3-0-3-0--5--6-6--0-0--3h5-3-0--3--0--5-------------------------------- 
d--0--3--0-0-0--3-0-3-0--5--6-6--0-0--3h5-3-0--3--0-----------------------------------
   .     . . .                   . .       
e-------------------------------------------------------------------------------------
b-------------------------------------------------------------------------------------
g-------------------------------------------------------------------------------------
d-------------------------------------------------------------------------------------
a--0-0-3h5-3-0-3----0-0-0-0-0-0-3-----------------------------------------------------
d--0-0-3h5-3-0-3----0-0-0-0-0-0-3-----------------------------------------------------
   . .              . . . . . . 
Verse (play 4 times, without vocals)
e-------------------------------------------------------------------------------------
b-------------------------------------------------------------------------------------
g-------------------------------------------------------------------------------------
d-----^--------------------^----------------------------------------------------------
a--0--3p0-0-0--0-0--0--0---3p0-0-0--0-0--0--0-----------------------------------------   x4
d--0--3p0-0-0--0-0--0--0---3p0-0-0--0-0--0--0-----------------------------------------
   .      . .  . .  .  .       . .  . .  .  . 
Verse (with vocals)
e-------------------------------------------------------------------------------------
b-------------------------------------------------------------------------------------
g-------------------------------------------------------------------------------------
d-----^--------------------^----------------------------------------------------------
a--0--3p0-0-0--0-0--0--0---3p0-0-0--0-0--0--0---3p0-0-0--0-0--0--0--------------------   
d--0--3p0-0-0--0-0--0--0---3p0-0-0--0-0--0--0---3p0-0-0--0-0--0--0--------------------
   .      . .  . .  .  .       . .  . .  .  .       . .  . .  .  .   
e-------------------------------------------------------------------------------------
b-------------------------------------------------------------------------------------
g--5--5--5--5-------------------------------------------------------------------------
d--5--5--3--4-------------------------------------------------------------------------
a--3--3--3--3-------------------------------------------------------------------------
d-------------------------------------------------------------------------------------
Verse with vocals x 3
Riff 1  (palm muted)
Verse with vocals x 3     
Riff 2 (without vocals)  x2
e-------------------------------------------------------------------------------------
b-------------------------------------------------------------------------------------
g-------------------------------------------------------------------------------------
d-------------------------------------------------------------------------------------
a--3p0---------5--0------------------------------------------------------------------- 
d------5p3-3---5--0-------------------------------------------------------------------
e-------------------------------------------------------------------------------------
b-------------------------------------------------------------------------------------
g-------------------------------------------------------------------------------------
d--^----------------------------------------------------------------------------------
a--3--0--0--0----3p0---------5--0----------------------------------------------------- 
d--3--0--0--0--------5p3-3---5--0-----------------------------------------------------
e-------------------------------------------------------------------------------------
b-------------------------------------------------------------------------------------
g-------------------------------------------------------------------------------------
d--^----------------3~----------------------------------------------------------------
a--3--0--0--0-------3~---------------------------------------------------------------- 
d--3--0--0--0-------3~----------------------------------------------------------------
Riff 2 (with vocals)
e-------------------------------------------------------------------------------------
b-------------------------------------------------------------------------------------
g-------------------------------------------------------------------------------------
d-------------------------------------------------------------------------------------
a--3p0---------5--0------------------------------------------------------------------- 
d------5p3-3---5--0-------------------------------------------------------------------
e-------------------------------------------------------------------------------------
b-------------------------------------------------------------------------------------
g-------------------------------------------------------------------------------------
d--^----------------------------------------------------------------------------------
a--3--0--0--0----3p0---------5--0----------------------------------------------------- 
d--3--0--0--0--------5p3-3---5--0-----------------------------------------------------
e-------------------------------------------------------------------------------------
b-------------------------------------------------------------------------------------
g-------------------------------------------------------------------------------------
d--^----------------------------------------------------------------------------------
a--3--0--0--0--------0-0--3-3--6---3-6-3-5-3------------------------------------------ 
d--3--0--0--0--------0-0--3-3--6---3-6-3-5-3------------------------------------------
e-------------------------------------------------------------------------------------
b-------------------------------------------------------------------------------------
g-------------------------------------------------------------------------------------
d-------------------------------------------------------------------------------------
a--3p0---------5--0------------------------------------------------------------------- 
d------5p3-3---5--0-------------------------------------------------------------------
e-------------------------------------------------------------------------------------
b-------------------------------------------------------------------------------------
g-------------------------------------------------------------------------------------
d--^----------------------------------------------------------------------------------
a--3--0--0--0----3p0---------5--0----------------------------------------------------- 
d--3--0--0--0--------5p3-3---5--0-----------------------------------------------------
e-------------------------------------------------------------------------------------
b-------------------------------------------------------------------------------------
g------------------5-/-8--------------------------------------------------------------
d--3~--------------5-/-8--------------------------------------------------------------
a--3~--------------3-/-6-------------------------------------------------------------- 
d--3~---------------------------------------------------------------------------------
End with drums


by bcreep