Difference between revisions of "The Kicking Machine"

From MelvinsWiki
Jump to: navigation, search
(Guitar Tab)
(Guitar Tab)
 
(35 intermediate revisions by the same user not shown)
Line 15: Line 15:
 
They were bullet poisoned
 
They were bullet poisoned
  
Forget everything
+
Forgive everything
  
 
Rotten, raving, headless leech,
 
Rotten, raving, headless leech,
Line 32: Line 32:
 
==Guitar Tab==
 
==Guitar Tab==
 
   
 
   
  Main Riff                                          After 3rd time
+
Riff 1: - Play 2x to begin with
  E------------------------------------------         E----------
+
    '''1'''      2      3      4        '''1'''  +  2  +  3  +  4  +    '''1'''      2      3      4   
  B------------------------------------------         B----------        
+
  E||--------------------------------|---------------------------------|------------------------------|
  G---9--------------------------------------         G-9----9---
+
  B||--------------------------------|---------------------------------|------------------------------|
  D---9----7-6-7-6-7-6-------5/4-------------         D-9----9---
+
  G||-9------------------------------|---------------------------------|------------------------------|
  A---7----------------7---7-----5-7-5-7-----         A-7----7---
+
  D||-9------------------------------|-7-6-7-6-7-6-----------5/4-------|------------------------------|
  E---0--------------------------------------         E-0----0---
+
  A||-7------------------------------|-------------7-------7-----5-7-5-|-7----------------------------|
 +
  E||-0------------------------------|---------------------------------|------------------------------|
  
1st Fill - 1:05
+
    '''+'''      2      3      4        '''1'''  +  2  +  3  +  4  +    '''1'''      2      3      4        '''1'''      2      3      4   
  E----------------------------
+
  E|---------------------------------|---------------------------------|---------------------------------|------------------------------|
  B----------------------------
+
  B|---------------------------------|---------------------------------|---------------------------------|------------------------------|
  G---9-------7---10---7---9---
+
  G|-9-------------------------------|---------------------------------|---------------------------------|------------------------------|
  D---9---2---7---10---7---9---   Back to Main Riff
+
  D|-9-------------------------------|-7-6-7-6-7-6-----------5/4-------|---------------------------------|------------------------------|
  A---7---2---5---8----5---7---
+
  A|-7-------------------------------|-------------7-------7-----5-7-5-|-7-------------------------------|------------------------------|
  E---0---0----------------0---
+
  E|-0-------------------------------|---------------------------------|---------------------------------|------------------------------|
  
  2nd Fill - 1:29
+
    '''+'''      2      3      4        '''1'''  +  2  +  3  +  4  +    '''1'''      2      3      4  '''+'''  
  E------------------------------------------------------------------------
+
  E|---------------------------------|---------------------------------|---------------------------------||
  B------------------------------------------------------------------------
+
  B|---------------------------------|---------------------------------|---------------------------------||
  G------------------------------------------------------------------------
+
  G|-9-------------------------------|---------------------------------|-----------------------------9---||
  D-------5-4------5-4-------5-4-------5-4---------------------------------
+
  D|-9-------------------------------|-7-6-7-6-7-6-----------5/4-------|-----------------------------9---||
  A-7-5-7----7-5-7-----7-5-7-----7-5-7-----7-5-7-5-7-5-7-5-7-5-7-5-7-5-7-5-
+
  A|-7-------------------------------|-------------7-------7-----5-7-5-|-7---------------------------7---||
  E------------------------------------------------------------------------
+
  E|-0-------------------------------|---------------------------------|-----------------------------0---||
  
Riff 2 - Play 4x
 
E----------------------------------------------------                     
 
B----------------------------------------------------
 
G----------------------------------------------------
 
D-------------------4-4-4-----------------------------------
 
A-------7-7-7-5-5-5-------5-5-4-4-----5-5---------4-4-5-5-----5-5-7-7-
 
E-0-0-0---------------------------0-0-----0-0-0-0---------0-0---------
 
  
"Solo"
+
1st Fill:
  E-17-17-17-17-17-17-17-17------
+
  E|----------------------------------------|
  B-------------------------17---
+
  B|----------------------------------------|
  G------------------------------
+
  G|-9-------9-------7-------10------7------|
  D------------------------------
+
  D|-9-------9-------7-------10------7------|
  A------------------------------
+
  A|-7-------7-------5--------8------5------| After this, play Riff 1 again 1x
  E------------------------------
+
  E|-0-------0------------------------------|
  
2:03
 
E---------------------------------------------------------
 
B---------------------------------------------------------
 
G-------------5-----------8---7---------------------------
 
D-7---8---5---5---8---7---8---7--7---8---9---8---9---10---
 
A-7---8---5---3---8---7---6---5--7---8---9---8---9---10---
 
E-5---6---3-------6---5----------5---6---7---6---7---8----
 
  
AT THE END OF THE SONG THE STRUM PATTERN BECOMES MORE UPBEAT. <br>
+
Then
 +
2nd Fill: (continuing from last bar of Riff 1)
 +
    '''1'''  2  3  '''2'''  2  3  '''3'''  2  3  '''4'''  2  3    '''1'''      2      3      4       
 +
E|-------------------------------------------------|---------------------------------|
 +
B|-------------------------------------------------|---------------------------------|
 +
G|-------------------------------------------------|---------------------------------|
 +
D|---5\4---------5\4---------5\4---------5\4-------|---------------------------------|
 +
A|-7-----5-7-5-7-----5-7-5-7-----5-7-5-7-----5-7-5-|-7p5-7p5-7p5-7p5-7p5-7p5-7p5-7p5-|
 +
E|-------------------------------------------------|---------------------------------|
  
 +
 +
Riff 2: - Play 4x
 +
    '''1'''      2      3      4        '''1'''      2      3      4
 +
E||---------------------------------|---------------------------------||                   
 +
B||---------------------------------|---------------------------------||
 +
G||---------------------------------|---------------------------------||
 +
D||-------------------4-4-4---------|---------------------------------||
 +
A||-------7-7-7-5-5-5-------5-5-4-4-|-----5-5-----4-4-5-5-----5-5-7-7-||
 +
E||-0-0-0---------------------------|-0-0-----0-0---------0-0---------||
 +
[<Palm-Mute...........................................................>]
 +
 +
 +
Bridge:
 +
 +
[Guitar 1]:_____________________________________________________________________[Guitar 2]:_____________________________________________________________________
 +
    '''1'''      2      3      4      '''1'''      2      3      4 
 +
E|--------------------------------------------------------------|  |E|-17-17-17-17-17-17-17-17-17-17-17-17-17-17-16-----------------|
 +
B|--------------------------------------------------------------|  |B|----------------------------------------------17--------------|
 +
G|-2-2-2-2-2-2-2-2-2-2-2-2-2-2-2-0------------------------------|  |G|--------------------------------------------------------------|
 +
D|-2-2-2-2-2-2-2-2-2-2-2-2-2-2-2-0-2----------------------------|  |D|--------------------------------------------------------------|
 +
A|-0-0-0-0-0-0-0-0-0-0-0-0-0-0-0-0-2----------------------------|  |A|--------------------------------------------------------------|
 +
E|---------------------------------0----------------------------|  |E|--------------------------------------------------------------|
 +
 +
Drum fill (Dale)
 +
 +
[Guitar 1]:_____________________________________________________[Guitar 2]:_______________________________________________________
 +
    '''+'''      2      3      4      1      2   
 +
E|-------------------------------------------------|  |E|-17-17-17-17-17-17-17-16-------------------------|
 +
B|-------------------------------------------------|  |B|-------------------------17----------------------|
 +
G|-2-2-2-2-2-2-2-0---------------------------------|  |G|-------------------------------------------------|
 +
D|-2-2-2-2-2-2-2-0-2-------------------------------|  |D|-------------------------------------------------|
 +
A|-0-0-0-0-0-0-0-0-2-------------------------------|  |B|-------------------------------------------------|
 +
E|-----------------0-------------------------------|  |E|-------------------------------------------------|
 +
 +
Drum fill (Coady)
 +
 +
Riff 3a: - Play 2x
 +
    '''1'''    2    3    '''1'''    2    3      '''1'''    2    3    '''1'''    2    3   
 +
E||-------------------------------------|-------------------------------------|
 +
B||-------------------------------------|-------------------------------------|
 +
G||-2--2--2--3--3--3-----------5--5--5--|-3--3--3--2--2--2--8--8--8--7--7--7--|
 +
D||-2--2--2--3--3--3--5--5--5--5--5--5--|-3--3--3--2--2--2--8--8--8--7--7--7--|
 +
A||-0--0--0--1--1--1--5--5--5--3--3--3--|-1--1--1--0--0--0--6--6--6--5--5--5--|
 +
E||-------------------3--3--3-----------|-------------------------------------|
 +
 +
    '''1'''    2    3    '''1'''    2    3     
 +
E|-------------------------------------||
 +
B|-------------------------------------||
 +
G|-------------------------------------||
 +
D|-7--7--8--8--9-----8--8--9--9--10----||
 +
A|-7--7--8--8--9-----8--8--9--9--10----||
 +
E|-5--5--6--6--7-----6--6--7--7--8-----||
 +
 +
Riff 3b: - Play 2x
 +
    '''1'''  2  3  4  1  2  3  4    '''1'''  2  3  4  1  2  3  4    '''1'''  2  3  4  1  2  3  4    '''1'''  2  3  4  1  2  3  4
 +
E||---------------------------------|---------------------------------|---------------------------------|---------------------------------|
 +
B||---------------------------------|---------------------------------|---------------------------------|---------------------------------|
 +
G||-2-2-2-2-2-2-2-2-3-3-3-3-3-3-3-3-|-----------------5-5-5-5-5-5-5-5-|-3-3-3-3-3-3-3-3-2-2-2-2-2-2-2-2-|-8-8-8-8-8-8-8-8-7-7-7-7-7-7-7-7-|
 +
D||-2-2-2-2-2-2-2-2-3-3-3-3-3-3-3-3-|-5-5-5-5-5-5-5-5-5-5-5-5-5-5-5-5-|-3-3-3-3-3-3-3-3-2-2-2-2-2-2-2-2-|-8-8-8-8-8-8-8-8-7-7-7-7-7-7-7-7-|
 +
A||-0-0-0-0-0-0-0-0-1-1-1-1-1-1-1-1-|-5-5-5-5-5-5-5-5-3-3-3-3-3-3-3-3-|-1-1-1-1-1-1-1-1-0-0-0-0-0-0-0-0-|-6-6-6-6-6-6-6-6-5-5-5-5-5-5-5-5-|
 +
E||---------------------------------|-3-3-3-3-3-3-3-3-----------------|---------------------------------|---------------------------------|
 +
 +
    '''1'''    2    3    '''1'''    2    3     
 +
E|-------------------------------------||
 +
B|-------------------------------------||
 +
G|-------------------------------------||
 +
D|-7--7--8--8--9-----8--8--9--9--10----||
 +
A|-7--7--8--8--9-----8--8--9--9--10----||
 +
E|-5--5--6--6--7-----6--6--7--7--8-----||
 +
 +
Finally, play this last bar again 2x.
 +
 +
End!
  
 
[[Category: Tablature]]
 
[[Category: Tablature]]

Latest revision as of 13:51, 1 July 2009

"The Kicking Machine" - 2:44

Originally released on Nude With Boots, 2008.

Lyrics

Any more lazy,

He won't eat or speak

Rotten, raving, headless leech,

Little horned animal


They were bullet poisoned

Forgive everything

Rotten, raving, headless leech,

Animal is falling/faultless


Right hand pathetic/perverted

It's fair/He's fit to pulverize her down, for the many

My God, it's all in ending.

Guitar Tab

Riff 1: - Play 2x to begin with

    1       2       3       4        1   +   2   +   3   +   4   +     1       2       3       4     
E||--------------------------------|---------------------------------|------------------------------|
B||--------------------------------|---------------------------------|------------------------------|
G||-9------------------------------|---------------------------------|------------------------------|
D||-9------------------------------|-7-6-7-6-7-6-----------5/4-------|------------------------------|
A||-7------------------------------|-------------7-------7-----5-7-5-|-7----------------------------|
E||-0------------------------------|---------------------------------|------------------------------|
   +       2       3       4         1   +   2   +   3   +   4   +     1       2       3       4         1       2       3       4    
E|---------------------------------|---------------------------------|---------------------------------|------------------------------|
B|---------------------------------|---------------------------------|---------------------------------|------------------------------|
G|-9-------------------------------|---------------------------------|---------------------------------|------------------------------|
D|-9-------------------------------|-7-6-7-6-7-6-----------5/4-------|---------------------------------|------------------------------|
A|-7-------------------------------|-------------7-------7-----5-7-5-|-7-------------------------------|------------------------------|
E|-0-------------------------------|---------------------------------|---------------------------------|------------------------------|
   +       2       3       4         1   +   2   +   3   +   4   +     1       2       3       4   +  
E|---------------------------------|---------------------------------|---------------------------------||
B|---------------------------------|---------------------------------|---------------------------------||
G|-9-------------------------------|---------------------------------|-----------------------------9---||
D|-9-------------------------------|-7-6-7-6-7-6-----------5/4-------|-----------------------------9---||
A|-7-------------------------------|-------------7-------7-----5-7-5-|-7---------------------------7---||
E|-0-------------------------------|---------------------------------|-----------------------------0---||


1st Fill:

E|----------------------------------------|
B|----------------------------------------|
G|-9-------9-------7-------10------7------|
D|-9-------9-------7-------10------7------|
A|-7-------7-------5--------8------5------| After this, play Riff 1 again 1x
E|-0-------0------------------------------|


Then 2nd Fill: (continuing from last bar of Riff 1)

   1   2   3   2   2   3   3   2   3   4   2   3     1       2       3       4         
E|-------------------------------------------------|---------------------------------|
B|-------------------------------------------------|---------------------------------|
G|-------------------------------------------------|---------------------------------|
D|---5\4---------5\4---------5\4---------5\4-------|---------------------------------|
A|-7-----5-7-5-7-----5-7-5-7-----5-7-5-7-----5-7-5-|-7p5-7p5-7p5-7p5-7p5-7p5-7p5-7p5-|
E|-------------------------------------------------|---------------------------------|


Riff 2: - Play 4x

    1       2       3       4         1       2       3       4
E||---------------------------------|---------------------------------||                     
B||---------------------------------|---------------------------------||
G||---------------------------------|---------------------------------||
D||-------------------4-4-4---------|---------------------------------||
A||-------7-7-7-5-5-5-------5-5-4-4-|-----5-5-----4-4-5-5-----5-5-7-7-||
E||-0-0-0---------------------------|-0-0-----0-0---------0-0---------||
[<Palm-Mute...........................................................>]


Bridge:

[Guitar 1]:_____________________________________________________________________[Guitar 2]:_____________________________________________________________________

   1       2       3       4       1       2       3       4   
E|--------------------------------------------------------------|  |E|-17-17-17-17-17-17-17-17-17-17-17-17-17-17-16-----------------|
B|--------------------------------------------------------------|  |B|----------------------------------------------17--------------|
G|-2-2-2-2-2-2-2-2-2-2-2-2-2-2-2-0------------------------------|  |G|--------------------------------------------------------------|
D|-2-2-2-2-2-2-2-2-2-2-2-2-2-2-2-0-2----------------------------|  |D|--------------------------------------------------------------|
A|-0-0-0-0-0-0-0-0-0-0-0-0-0-0-0-0-2----------------------------|  |A|--------------------------------------------------------------|
E|---------------------------------0----------------------------|  |E|--------------------------------------------------------------|
Drum fill (Dale)

[Guitar 1]:_____________________________________________________[Guitar 2]:_______________________________________________________

   +       2       3       4       1       2     
E|-------------------------------------------------|  |E|-17-17-17-17-17-17-17-16-------------------------|
B|-------------------------------------------------|  |B|-------------------------17----------------------|
G|-2-2-2-2-2-2-2-0---------------------------------|  |G|-------------------------------------------------|
D|-2-2-2-2-2-2-2-0-2-------------------------------|  |D|-------------------------------------------------|
A|-0-0-0-0-0-0-0-0-2-------------------------------|  |B|-------------------------------------------------|
E|-----------------0-------------------------------|  |E|-------------------------------------------------|
Drum fill (Coady)

Riff 3a: - Play 2x

    1     2     3     1     2     3       1     2     3     1     2     3    
E||-------------------------------------|-------------------------------------|
B||-------------------------------------|-------------------------------------|
G||-2--2--2--3--3--3-----------5--5--5--|-3--3--3--2--2--2--8--8--8--7--7--7--|
D||-2--2--2--3--3--3--5--5--5--5--5--5--|-3--3--3--2--2--2--8--8--8--7--7--7--|
A||-0--0--0--1--1--1--5--5--5--3--3--3--|-1--1--1--0--0--0--6--6--6--5--5--5--|
E||-------------------3--3--3-----------|-------------------------------------|
   1     2     3     1     2     3      
E|-------------------------------------||
B|-------------------------------------||
G|-------------------------------------||
D|-7--7--8--8--9-----8--8--9--9--10----||
A|-7--7--8--8--9-----8--8--9--9--10----||
E|-5--5--6--6--7-----6--6--7--7--8-----||

Riff 3b: - Play 2x

    1   2   3   4   1   2   3   4     1   2   3   4   1   2   3   4     1   2   3   4   1   2   3   4     1   2   3   4   1   2   3   4 
E||---------------------------------|---------------------------------|---------------------------------|---------------------------------|
B||---------------------------------|---------------------------------|---------------------------------|---------------------------------|
G||-2-2-2-2-2-2-2-2-3-3-3-3-3-3-3-3-|-----------------5-5-5-5-5-5-5-5-|-3-3-3-3-3-3-3-3-2-2-2-2-2-2-2-2-|-8-8-8-8-8-8-8-8-7-7-7-7-7-7-7-7-|
D||-2-2-2-2-2-2-2-2-3-3-3-3-3-3-3-3-|-5-5-5-5-5-5-5-5-5-5-5-5-5-5-5-5-|-3-3-3-3-3-3-3-3-2-2-2-2-2-2-2-2-|-8-8-8-8-8-8-8-8-7-7-7-7-7-7-7-7-|
A||-0-0-0-0-0-0-0-0-1-1-1-1-1-1-1-1-|-5-5-5-5-5-5-5-5-3-3-3-3-3-3-3-3-|-1-1-1-1-1-1-1-1-0-0-0-0-0-0-0-0-|-6-6-6-6-6-6-6-6-5-5-5-5-5-5-5-5-|
E||---------------------------------|-3-3-3-3-3-3-3-3-----------------|---------------------------------|---------------------------------|
   1     2     3     1     2     3      
E|-------------------------------------||
B|-------------------------------------||
G|-------------------------------------||
D|-7--7--8--8--9-----8--8--9--9--10----||
A|-7--7--8--8--9-----8--8--9--9--10----||
E|-5--5--6--6--7-----6--6--7--7--8-----||

Finally, play this last bar again 2x.

End!