The Kicking Machine

From MelvinsWiki
Revision as of 21:33, 16 July 2008 by Bathroom creep (talk | contribs) (guitar tab)
Jump to: navigation, search

"The Kicking Machine" - 2:44

Originally released on Nude With Boots, 2008.

Guitar Tab

main riff played 3 times in intro Then right before the singing/BACK TO MAIN RIFF

E--------------------------------                E------------
B--------------------------------                B------------         
G---9----------------------------                G---9--------
D---9----767676-------54---------                D---9----2---
A---7------------7--7--------5757                A---7----2---
E---0---------------------------                 E---0----0---
PART AT 1:05
E----------------------------      BACK TO MAIN
B----------------------------
G---9-------7---10---7---9---
D---9---2---7---10---7---9---
A---7---2---5---8----5---7---
E---0---0----------------0---
1:29 PUT THE MAIN RIFF RIGHT BEFORE THIS
E----------------------------------------------
B----------------------------------------------
G----------------------------------------------
D------54-----54-----54-----54-----------------
A---757---757----757----757-----7575757575757575  HAMMER ONS
E----------------------------------------------
1:35-1:55
E----------------------------------------------------                       
B----------------------------------------------------
G----------------------------------------------------
D---------------444----------------------------------
A------777--555-----555-444--------5----45----57-----
E--000--------------------------00---00----00--------
LITTLE SOLO THING (LISTEN TO IT TO LEARN HOW TO STRUM IT)
E--17--12--
B----------
G----------
D----------
A----------
E----------
2:03
E--------------------------------
B--------------------------------
G--------5-----8-7---------------
D--7-8-5-5-8-7-8-7--7-8-9-8-9-10-
A--7-8-5-3-8-7-6-5--7-8-9-8-9-10-
E--5-6-3---6-5------5-6-7-6-7-8--

AT THE END OF THE SONG THE STRUM PATTERN CHANGES MORE UP BEAT PUNK.
ENJOY CHRIS P. BACON