The Kicking Machine

From MelvinsWiki
Revision as of 23:54, 30 June 2009 by Green Honey (talk | contribs) (Guitar Tab)
Jump to: navigation, search

"The Kicking Machine" - 2:44

Originally released on Nude With Boots, 2008.

Lyrics

Any more lazy,

He won't eat or speak

Rotten, raving, headless leech,

Little horned animal


They were bullet poisoned

Forget everything

Rotten, raving, headless leech,

Animal is falling/faultless


Right hand pathetic/perverted

It's fair/He's fit to pulverize her down, for the many

My God, it's all in ending.

Guitar Tab

Main Riff                                           After 3rd time
E------------------------------------------         E----------
B------------------------------------------         B----------         
G---9--------------------------------------         G-9----9---
D---9----7-6-7-6-7-6-------5/4-------------         D-9----9---
A---7----------------7---7-----5-7-5-7-----         A-7----7---
E---0--------------------------------------         E-0----0---
1st Fill - 1:05
E----------------------------
B----------------------------
G---9-------7---10---7---9---
D---9---2---7---10---7---9---   Back to Main Riff
A---7---2---5---8----5---7---
E---0---0----------------0---
2nd Fill - 1:29 
E------------------------------------------------------------------------
B------------------------------------------------------------------------
G------------------------------------------------------------------------
D-------5-4------5-4-------5-4-------5-4---------------------------------
A-7-5-7----7-5-7-----7-5-7-----7-5-7-----7-5-7-5-7-5-7-5-7-5-7-5-7-5-7-5-
E------------------------------------------------------------------------
Riff 2 - Play 4x
E----------------------------------------------------                       
B----------------------------------------------------
G----------------------------------------------------
D-------------------4-4-4-----------------------------------
A-------7-7-7-5-5-5-------5-5-4-4-----5-5---------4-4-5-5-----5-5-7-7-
E-0-0-0---------------------------0-0-----0-0-0-0---------0-0---------
"Solo"
E-17-17-17-17-17-17-17-17------
B-------------------------17---
G------------------------------
D------------------------------
A------------------------------
E------------------------------
2:03
E---------------------------------------------------------
B---------------------------------------------------------
G-------------5-----------8---7---------------------------
D-7---8---5---5---8---7---8---7--7---8---9---8---9---10---
A-7---8---5---3---8---7---6---5--7---8---9---8---9---10---
E-5---6---3-------6---5----------5---6---7---6---7---8----

AT THE END OF THE SONG THE STRUM PATTERN BECOMES MORE UPBEAT.