Author Topic: The Real Sky Pup bass/guitar Intro  (Read 1880 times)

0 Members and 1 Guest are viewing this topic.

Offline Buzzinthebox

  • gardening gloves
  • ***
  • Posts: 212
    • View Profile
The Real Sky Pup bass/guitar Intro
« on: February 20, 2011, 02:00:13 AM »
I've seen no correct tabs of it, so I thought I should tab it out for you guys so you can finally play the whole song right!   :toke:   

Update: I knew I forgot something! Missed the very last "0" to the riff, or however you'd like to call it lol. Now it's complete  :cheers:




-------------------------------------------------------------------------|
-------------------------------------------------------------------------|
-------------------------------------------------------------------------|
------------5-----------------------------------------------------------|
-------4-------3--4--5--0------3--4------3--4-------------------|
-3-----------------------------2----------2----------2--0-----------|



-------------------------------------------------------------------------|
-------------------------------------------------------------------------|
-------------------------------------------------------------------------|
-------------5----------------------------------------------------------|
-------4-------3--4--5-----------------------------------------------|
-3------------------------3--0----------------------------------------|
"This is America. I don't want a tomato picked by a Mexican. I want it picked by an American, then sliced by a Guatemalan and served by a Venezuelan in a spa where a Chilean gives me a Brazilian." - Stephen Colbert

Offline AxelFoley

  • merch vulture
  • ****
  • Posts: 284
  • Gender: Male
  • This is the cleanest & nicest board I've ever been
    • View Profile
Re: The Real Sky Pup bass/guitar Intro
« Reply #1 on: February 20, 2011, 04:25:28 AM »
Welcome to the board!

For Melvins tabs, there exists a sticky thread right at the top of "Melvins Discussion" section. You should post your tab in there:

http://www.themelvins.net/forum/index.php?topic=2273.0

Offline Buzzinthebox

  • gardening gloves
  • ***
  • Posts: 212
    • View Profile
Re: The Real Sky Pup bass/guitar Intro
« Reply #2 on: February 20, 2011, 03:44:48 PM »
Hello, I will post it there as well! Thanks for welcoming me  :)
"This is America. I don't want a tomato picked by a Mexican. I want it picked by an American, then sliced by a Guatemalan and served by a Venezuelan in a spa where a Chilean gives me a Brazilian." - Stephen Colbert

Offline AxelFoley

  • merch vulture
  • ****
  • Posts: 284
  • Gender: Male
  • This is the cleanest & nicest board I've ever been
    • View Profile
Re: The Real Sky Pup bass/guitar Intro
« Reply #3 on: February 21, 2011, 07:49:06 AM »
No problem. We are all one big family of nerds and freaks, aren't we?  :D

Offline Pringles

  • merch vulture
  • ****
  • Posts: 287
    • View Profile
Re: The Real Sky Pup bass/guitar Intro
« Reply #4 on: February 22, 2011, 07:34:46 AM »
Thank you sire, I waited 10 year for that  :P
Luck is a residue of design

Offline Buzzinthebox

  • gardening gloves
  • ***
  • Posts: 212
    • View Profile
Re: The Real Sky Pup bass/guitar Intro
« Reply #5 on: February 23, 2011, 12:55:21 AM »
Thank you sire, I waited 10 year for that  :P
I'm stoked to have helped out    :)
"This is America. I don't want a tomato picked by a Mexican. I want it picked by an American, then sliced by a Guatemalan and served by a Venezuelan in a spa where a Chilean gives me a Brazilian." - Stephen Colbert